accueil

oiseaux

mammifères

nouveautés

articles

rechercher

                            

 

Livre d'or 4 3 2 1

Pour laisser un message, utiliser la rubrique "Contact"
 
150--------------------------------------------------------------15/10/2008---
Je découvre votre site par le biais de Festimages... J'aime
particulièrement la mue de l'hermine... M'est-il possible de
faire un lien sur mon site (avec un copier d'une de vos images)?
Amicalement

Hubert BASLE site
149--------------------------------------------------------------12/10/2008---
Tout simplement magnifique, tu m'as permis d'avoir un petit moment
d'évasion en admirant ces belles photos. Quel talent!!

Ta petite cousine, Laure
148--------------------------------------------------------------30/09/2008---
C'est toujours un plaisir de venir voir tes magnifiques photos. 

Sophie.L
147--------------------------------------------------------------24/09/2008---
Superbes images d'un photographe de la nature. Bonne continuation !

GIL44 site
146--------------------------------------------------------------22/09/2008---
Je vois encore de superbes photos !! En plus tes photos sont sur des bus:)
et des cartes postales: c'est super. Et puis grâce à toi (enfin j'avais
pas vraiment chercher), j'ai appris le nom de cette plante qui poussait
dans le jardin de mes parents et dont personne ne savait le nom : le
raisin d'amérique. Encore bravo pour toutes ces photos.

Cécile
145--------------------------------------------------------------21/09/2008---
Que dire de plus, si ce n'est Bravo et Waoow !
Joli travail photographique. Encore Bravo et continuez ainsi !
Photographiquement.

Matthieu THOMAS site
144--------------------------------------------------------------16/09/2008---
Félicitations Jérôme pour ta nouvelle rubrique " actualités "
et cette reconnaissance méritée, fruit d'une réelle patience.

Albert
143--------------------------------------------------------------16/09/2008---
Félicitations Jérôme pour tes photos d'hermine qui seront exposées, tu
peux être fier de toi.

Fabien site
142--------------------------------------------------------------13/09/2008---
Un site vraiment magnifique. Bravo pour votre patience, je souhaite un
jour arriver à un tel résultat... Bonne continuation, à l'occasion venez
découvrir mes quelques photos.

NATH site
141--------------------------------------------------------------12/09/2008---
Bravo. Quel site, très très haut niveau, superbes éclairages, le bon
déclic..!! Un site à conseiller. Cordialement.

Pierre site
140--------------------------------------------------------------05/09/2008---
Un seul mot me vient : SUPERBE !
Je suis tombée amoureuse de l'hermine et des bébés renards...
Quelle patience... mais quels résultats ! Merci de nous faire
découvrir ces beautés de la nature... Je n'ai pas trouvé les
empreintes de Lynx...!!!

Lachieuze
139--------------------------------------------------------------02/09/2008---
Un seul mot MAGNIFIQUE. 
A vous lire on devine l'amoureux de la nature et de la photo, mariage
explosif de talent... Sur une des photos d'oiseaux on devine les traces
de pluie en filet, c'est beau... Bravo Monsieur pour ce témoignage,
envers notre nature. Je reviendrai, c'est sur...

José Miro del Valle site
138--------------------------------------------------------------14/08/2008---
Excellent site... bonne continuation !

JJ
137--------------------------------------------------------------09/08/2008---
Vaiment c'est extraordinaire toute cette nature, c'est paradisiaque...
Merci de tout coeur. Des sites comme celui là, on en a besoin. Thank you
Matite
136--------------------------------------------------------------05/08/2008---
Très belle empreinte de lynx ... Comme tu dis, la forêt n'en parait que
plus belle après une telle observation.

Fabien site
135--------------------------------------------------------------25/07/2008---
Superbe empreinte de lynx!!
Ça fait toujours quelque chose de tomber dessus...

Fred site
134--------------------------------------------------------------21/07/2008---
Bravo pour tous ces clichés ! Je vous suggère de participer au festival
photo de Crest (26) car vous êtes tout à fait ce que nous recherchons.
Plus d'infos sur le site http://amisclics.free.fr J-P Pillet-Bernard site
133--------------------------------------------------------------21/07/2008---
Toujours un réel plaisir de naviguer sur ton site ! Magnifiques les
petits renards ! J'ai créé un lien vers ton site sur mon nouveau site
"Abergeur.fr". A bientôt

Régis R. site
132--------------------------------------------------------------20/07/2008---
Félicitations pour ce site qui est extraordinaire !
Merci pour ces photos exceptionnelles avec commentaires. Je ne me lasse
pas de les regarder, je suis toujours à l'affût de vos nouveautés, car
je suis une amoureuse de la nature. Encore merci.

Elisabeth Pistorius
131--------------------------------------------------------------14/07/2008---
Très belles photos, très belle lumière. Je ne suis qu'un amateur et j'ai
entrepris un répertoire des oiseaux de Martinique. Votre avis, et vos
critiques éventuelles m'intéressent. Amitiés

Roico site
130--------------------------------------------------------------23/06/2008---
Vos photos sont très belles. On ne peut que s'éveiller à la beauté de la
nature et du monde animal après les avoir vues. Bravo
Doty  site 
129--------------------------------------------------------------20/06/2008---
Superbes images, j'ai particulièrement apprécié l'hermine que je n'ai
pas eu le plaisir de rencontrer... ou pas su voir. Bravo

Serge M. site
128--------------------------------------------------------------17/06/2008---
Un petit bonjour en passant, j'ai adoré les photos des petits
renardeaux, ils sont magnifiques ! Superbes photos comme d'habitude et
une petite bouffée d'oxygène, de dépaysement et de magie ! Merci

Fabien
127--------------------------------------------------------------16/06/2008---
Un métier que j'aurais bien aimé faire. Il y a 20 ans j'ai fait un film
sur les nids des mauges. Votre galerie de PHOTOS est SUPER. Merci A+

Thierry
126--------------------------------------------------------------16/06/2008---
Bonjour, tombé par hasard sur votre site, je n'en suis pas déçu. Une
superbe galerie et des petits reportages vraiment agréables à
découvrir... Un vrai passionné il n'y a pas de doute...
Bonne continuation.

Valentin site PS: j'ai bien aimé la fin de votre article sur La foulque macroule, une petite conclusion sur la sélection naturelle très bien introduite.
125--------------------------------------------------------------08/06/2008---
Très beau site surtout les petits renards....c'est mon côté enfantin.
A très bientôt.
Marie
124--------------------------------------------------------------16/05/2008---
Je ne suis pas certain d'avoir déjà laissé un message, sinon tant pis ...
cela en mérite bien un deuxième ... rien que pour la belle :-))
Félicitations pour ton travail et tes images.

Olivier (Olivier C) site
123--------------------------------------------------------------14/05/2008---
Le monde ne manque pas de merveilles, il manque d'émerveillement! 
VRAIMENT BRAVO. Comme toi, je passe des heures à affûter, et réussir des
clichés aussi merveilleux restent des instants uniques, forts en
émotions.

CHIES
122--------------------------------------------------------------14/05/2008---
Cette série des renardeaux est vraiment géniale!.. et très
attendrissante... Bravo
Fred  site 
121--------------------------------------------------------------10/05/2008---
Jérôme,ton site et tes photos sont vraiment SUPER... Belle présentation.
merci @++

Francis ou GASPER site
120--------------------------------------------------------------09/05/2008---
Bravo Jérôme! Tes petits renardeaux sont extra ... Avec de la patience
on arrive à ses fins.

Amitiés. Maurice site
119--------------------------------------------------------------07/05/2008---
Quoi de plus normal pour un amoureux de la nature, que de sortir de tels
clichés. Chapeau l'artiste! Encore bravo.

Mathieu
118--------------------------------------------------------------07/05/2008---
De passage sur ton site, j'avais entendu parler de toi (on est de la
même région). Il y a certaines photos remarquables dans ta production,
les séries sur les foulques et l'hermine sont superbes... Je vois que
tu habites dans un coin qui est un paradis pour les oiseaux d'eau - à
savoir le Haut-Doubs, j'y ai fait des bivouacs ces dernières années et
j'aimerais bien y habiter un jour...

Au plaisir. Florent site
117--------------------------------------------------------------25/04/2008---
Je n'étais pas venue depuis longtemps, et les photos en nouveauté sont
exceptionnelles. Je ne sais que dire : c'est toujours aussi réussi!
Cécile
116--------------------------------------------------------------22/04/2008---
Vraiment fabuleux ces photos, surtout pour une amoureuse de la nature
comme moi, mes félicitations!

Elodie
115--------------------------------------------------------------21/04/2008---
Superbes photos ! Merci pour cet excellent moment passé à visiter les
galeries. J'avoue un faible pour les renards... Mais les hermines leur
volent la vedette, sans parler des oiseaux... On sent beaucoup de
sensibilité et un grand respect du sujet à travers vos photos. Et l'on
devine les heures d'affût et de patience qui précèdent "LE" cliché.
Encore bravo. Bonne continuation artistique.

Cathy site
114--------------------------------------------------------------17/04/2008---
Pour moi qui aime la nature, celle qui ressource, c'est tout bonnement
époustouflant! Bravo et aussi bonne continuation.

Joëlle
113--------------------------------------------------------------16/04/2008---
Bravo. J'ai passé un très agréable moment à regarder et à admirer.
Continue. Amicalement

Marijo
112--------------------------------------------------------------16/04/2008---
J'ai parcouru tes photos, elles sont superbes. Je vais en parler pour
que toutes les personnes que je connais voient tes belles photos.

Line et Stéphane
111--------------------------------------------------------------14/04/2008---
Je me permets de vous contacter pour vous féliciter tout d'abord, mais
ça, c'est pas très original vu la qualité de vos photos, mais aussi parce
que j'ai vu que vous habitiez vers le lac St Point, et que je suis
originaire du coin (Remoray), même si j'habite maintenant depuis 15 ans
à Grenoble. Je repasse régulièrement dans la région où je fais aussi de
la photo. Alors peut-être au plaisir de vous croiser dans le coin?

Fred site
110--------------------------------------------------------------12/04/2008---
Bravo, aussitôt dit aussitôt visité. Tes photos sont superbes et outre
leurs qualités, je suis admirative d'une telle patience !!! Je comprends
ta passion et les raisons qui la motivent. Félicitations et continue
longtemps, très longtemps ...

Karine et Gabin
109--------------------------------------------------------------08/04/2008---
Je suis photographe amateur et je cherche a acquérir de la technique
dans la photographie animalière. J'aurais aimé savoir si vous proposiez
des stages photo pendant l'année. Merci d'avance pour votre réponse.

Guillaume V.
108--------------------------------------------------------------08/04/2008---
Très beau. Je vais donner ton site au voisin pour son petit fils.
Tes photos sont très réussies - pas encore tout vu. Félicitation.
Jacques M.
107--------------------------------------------------------------02/04/2008---
Superbe à voir et surtout à revoir, c'est certain. Merci

Marichal Claude site
106--------------------------------------------------------------02/04/2008---
Je suis très admiratif de la beauté de vos photos et en particulier une
du bouquetin que j'ai vu sur votre site. Je trouve qu'elle illustre à
merveille les thèmes d'une partie de ma poésie. Je souhaiterais insérer
votre photo en version réduite sur le site avec un lien vers le vôtre et
la mention de votre copyright. Merci de m'indiquer si vous seriez
d'accord avec cela. Cordialement.

Jacques Martin site
105--------------------------------------------------------------31/03/2008---
Alors là, chapeau, même si le 500mm apporte un plus, je pense que
l'expérience, la patience et la qualité du photographe contribuent
beaucoup à la beauté des photos. Les commentaires apportent les
explications nécessaires, la mise en page est agréable et pratique : du
bien pensé. Comment ne pas aimer la nature après une visite de votre site?

Bruno Tondellier
104--------------------------------------------------------------25/03/2008---
De plus en plus beau ... !

Jean
103--------------------------------------------------------------24/03/2008---
Bravo, la très belle série du combat de foulques, avec les très bons
commentaires. La prise de vue au ras de l'eau ajoute au réalisme des
situations. Je reviendrai sûrement voir les autres sujets. Une suggestion
... les données exif et le matos utilisé seraient un plus pour
les photographes qui visitent votre site.
Merci de partager votre passion pour la nature.

Jean-Michel site
102--------------------------------------------------------------17/03/2008---
J'ai découvert votre site grâce à Virus Photo et je m'en félicite ! Que
de beauté ! Vos photos sont magnifiques et témoignent d'un grand talent
et d'une parfaite maîtrise de la technique photographique. Bravo !

Marie-France Mellone site
101--------------------------------------------------------------17/03/2008---
Toutes mes félicitations. Je te savais doué pour les photos mais là je
suis vraiment épatée. Continue à nous émerveiller.
Carine



    
 
   

La suite du livre d'or ici

Pour revenir en haut de la page, cliquer ICI

     
 

 

                                      

 

biographie

actualités

liens

livre d'or

tirage

contact